Gitarová výuka - konzultácie - workshopy

Nová sekcia na diskusnom fóre "Gitarová výuka - konzultácie - workshopy"


Obsah fóra Ostatné Všeobecná diskusia Metallica Nothing else matters - Ako zahrat?

Metallica Nothing else matters - Ako zahrat?

...voľná diskusia o všetkom

MAREK17 nováčik
nováčik

Príspevky: 60
Bydlisko: Slovenská republika
ako mam zahrat tieto sekvecie:

Nothing Else Matters
|-----------0-----7--|--7--------7p0-------|--------7--8--7h87\5-|--7--5/2------|
|--------0-----0-----|-----0-----0---0-----|--0-----0--0---------|--0--------5--|
|-----0--------------|--------0---------0--|-----0---------------|--------------|
|--------------------|---------------------|---------------------|--------------|
|--------------------|---------------------|---------------------|--------------|
|--0-----------------|--0------------------|--0------------------|--------------|


ten zaciatok zhruba viem , ale ide o to ako zahram dve nuly na dvoch strunach. Pripadne 7 a 0 .
Alebo 7 a 0, 8 a 0.

 
CHORUS (acoustic guitar)
 w/fill 1                                                      repeat twice
||--0---------|--2---2-2-2-3-2--0--2-|--0---------|--2---2-2-2-3-2--0--2--||
||*-1----2----|--3---3-3-3-3-3--3--3-|--1----2----|--3---3-3-3-3-3--3--3-*||
||--0----2----|--2---2-2-2-2-2--2--2-|--0----2----|--2---2-2-2-2-2--2--2--||
||*-2----2----|--0---0-0-0-0-0--0--0-|--2----2----|--0---0-0-0-0-0--0--0-*||
||--3----0----|----------------------|--3----0----|-----------------------||
||------------|----------------------|------------|-----------------------||


toto su akordy.brnkam len tie struny kde su cisla ze?

|Guitar I
|----------8--------|--0----------0-----|--0----------0-----|
|-------5-----5-----|-----1----------1--|-----3----------3--|
|----5-----------5\-|--------0----------|--------2----------|
|-------------------|-------------------|-------------------|
|-------------------|-------------------|-------------------|
|-------------------|-------------------|-------------------|

ako mam zahrat tu 5/ ?

|Guitar I
|-------------------0------------|---...----------|
|--------------0---------0-------|---...----------|
|---------0----------------------|---...----------|
|--------------------------------|---...----------|
|--------------------------------|---...----------|
|--0-----------------------------|---...----------|
|                                |                |
|Guitar II                       |                |
|--------------------------------|----------------|
|----15--15--15------------------|----------------|
|----14--14b-14r-12-----------12-|----------------|
|-------------------14--12h14----|--14------------|
|--------------------------------|----------------|
|--------------------------------|----------------|

BEFORE SOLO
|---------------------------|
|---------------------------|
|---------------------------|
|---------------------------|
|--7-7---------2-2-2-2-2-2--|
|------0-0-0-0-0-0-0-0-0-0--|
       pm. . . . . . . . .

tie tri bodky ako? a ten PALM Mutting ?

|              Drop only, w/volume swell
|                  1/5 (tremolo)
|                      \  /
|Guitar II              \/
|--------------------|--12-----------------|
|--------------------|--12-----------------|
|-2p0--0-------------|--12-----------------|
|----4---------------|---------------------|
|--------------------|---------------------|
|--------------------|---------------------|


a to tremolo ako?


|------------------------------------|----------------|--------------|
|------------------------------------|----------------|--------------|
|------------------------------------|----------------|--------------|
|--------------------------4---------|----------------|--------------|
|--5-----------------------2---------|--2-------------|--(2)---------|
|--3---------------------------------|--0-------------|--(0)---------|


cisla v zatvorkach ako zahram?

Poslať 20 Júl 2011, 20:42
saman.sk domáci pán
domáci pán

Príspevky: 295
na internete si najdi vysvetlivky ku tabulaturam,keby som ti to vsetko mal vysvetlovat to by bolo na dlho...

Poslať 21 Júl 2011, 09:45
Joe5263 okukávač
okukávač

Príspevky: 105
Bydlisko: Leles
A vyhladaj si aj základné tréningy na nacvičovanie hry s tabulátormi, pretože táto skladba nie je vôbec na začiatok (by si sa z toho zbláznil kým sa to naučíš- ver mi aj mne to trvalo nejaký čas a to som už perfektne vedel čítať z tabulátorov). :idea:
My Gear:
Ibanez RG370DXL
Cort X-2 BK LH
Korg AX5G
Peavey ValveKing Royal 8

Poslať 21 Júl 2011, 18:45
MAREK17 nováčik
nováčik

Príspevky: 60
Bydlisko: Slovenská republika
hej , a pod cim to mam hladat u Uja Googla?
- Explain Tabs?

Poslať 25 Júl 2011, 11:45
DanielsonSVK nováčik
nováčik

Príspevky: 4
aždá tabulatúra má zvyčajne na úplnom začiatku, alebo konci vysvetlivky použitých značiek. Väčšinou sú všeobecné

5\ znamená, že zahráš strunu na piatom pražci a spravíš slide dole (do stratena)
(2) znamená, že zahráš tlmenú strunu (zvyčajne tlmenie pravou rukou)
tremolo - s tremolo páčkou pohybuješ podľa obrázka (vypočuj si to, ako zneju tóny)

veď sleduj ten tab počas počúvania skladby a hneď všetkému pochopíš

atd atd...

Poslať 25 Júl 2011, 14:26
MAREK17 nováčik
nováčik

Príspevky: 60
Bydlisko: Slovenská republika
Hej , toto by mi zatial stacilo , niektore veci som si z netu vytlacil v anglicine.

Poslať 24 Feb 2012, 14:50
ITIetalista Obrázok užívateľa
okukávač
okukávač

Príspevky: 151

http://www.songsterr.com/a/wsa/metallic ... b-s84465t0
Nothing else matters - máš tam všetko (tempo atď.) prípadne si pozri video na YouTube ako sa to hrá. http://www.youtube.com/watch?v=t96lZCB4dZ8
Nastavenia pre Vypyr komba nájdete na: http://www.vypyrsettings.fr/?choice=select
_________________
Guitars:
Ibanez RG170DXL (Electric) - stock
Cort X-2 LH (Electric) - customed- white, fixed bridge, 1volume, 3way switch, Pickups: Bridge EMG HZ humbucker, Neck no-name singlecoil.
Amplifiers:
Peavey Vypyr 15 head + homemade reprobox
_________________


Späť na Všeobecná diskusia

cron